ISO-10303-21;
HEADER;
FILE_DESCRIPTION (( 'STEP AP203' ),
    '1' );
FILE_NAME ('Q-QZWP-R4-12.7-894-M.STEP',
    '2020-12-23T01:24:38',
    ( '' ),
    ( '' ),
    'SwSTEP 2.0',
    'SolidWorks 2020',
    '' );
FILE_SCHEMA (( 'CONFIG_CONTROL_DESIGN' ));
ENDSEC;

DATA;
#1 = ORIENTED_EDGE ( 'NONE', *, *, #231, .F. ) ;
#2 = AXIS2_PLACEMENT_3D ( 'NONE', #82, #174, #299 ) ;
#3 = LOCAL_TIME ( 9, 24, 38.00000000000000000, #141 ) ;
#4 = DIRECTION ( 'NONE',  ( -1.000000000000000000, -0.000000000000000000, -0.000000000000000000 ) ) ;
#5 = ORIENTED_EDGE ( 'NONE', *, *, #264, .T. ) ;
#6 = AXIS2_PLACEMENT_3D ( 'NONE', #325, #223, #20 ) ;
#7 = CC_DESIGN_DATE_AND_TIME_ASSIGNMENT ( #8, #316, ( #128 ) ) ;
#8 = DATE_AND_TIME ( #16, #3 ) ;
#9 = FACE_OUTER_BOUND ( 'NONE', #96, .T. ) ;
#10 = COORDINATED_UNIVERSAL_TIME_OFFSET ( 8, 0, .AHEAD. ) ;
#11 = VERTEX_POINT ( 'NONE', #286 ) ;
#12 = DIRECTION ( 'NONE',  ( -1.000000000000000000, -0.000000000000000000, -0.000000000000000000 ) ) ;
#13 = ORIENTED_EDGE ( 'NONE', *, *, #247, .T. ) ;
#14 = DIRECTION ( 'NONE',  ( -1.000000000000000000, -0.000000000000000000, -0.000000000000000000 ) ) ;
#15 = APPROVAL ( #322, 'UNSPECIFIED' ) ;
#16 = CALENDAR_DATE ( 2020, 23, 12 ) ;
#17 = FACE_OUTER_BOUND ( 'NONE', #165, .T. ) ;
#18 = DIRECTION ( 'NONE',  ( -1.000000000000000000, -0.000000000000000000, -0.000000000000000000 ) ) ;
#19 = CYLINDRICAL_SURFACE ( 'NONE', #148, 6.349999999999999645 ) ;
#20 = DIRECTION ( 'NONE',  ( 0.000000000000000000, 0.000000000000000000, -1.000000000000000000 ) ) ;
#21 = ORIENTED_EDGE ( 'NONE', *, *, #200, .F. ) ;
#22 = EDGE_LOOP ( 'NONE', ( #52, #253, #81, #220 ) ) ;
#23 = ORGANIZATION ( 'UNSPECIFIED', 'UNSPECIFIED', '' ) ;
#24 = CARTESIAN_POINT ( 'NONE',  ( 3.000000000000000000, 0.000000000000000000, 0.000000000000000000 ) ) ;
#25 = FACE_OUTER_BOUND ( 'NONE', #40, .T. ) ;
#26 = LINE ( 'NONE', #204, #87 ) ;
#27 = UNCERTAINTY_MEASURE_WITH_UNIT (LENGTH_MEASURE( 1.000000000000000082E-05 ), #226, 'distance_accuracy_value', 'NONE');
#28 = CARTESIAN_POINT ( 'NONE',  ( 1.500000000000000888, 7.776507174585692163E-16, -6.349999999999999645 ) ) ;
#29 = VECTOR ( 'NONE', #150, 1000.000000000000000 ) ;
#30 = FACE_BOUND ( 'NONE', #292, .T. ) ;
#31 = PERSON_AND_ORGANIZATION_ROLE ( 'classification_officer' ) ;
#32 = APPROVAL_ROLE ( '' ) ;
#33 = ADVANCED_FACE ( 'NONE', ( #267 ), #239, .F. ) ;
#34 = ORIENTED_EDGE ( 'NONE', *, *, #242, .T. ) ;
#35 = APPROVAL_DATE_TIME ( #138, #155 ) ;
#36 = CIRCLE ( 'NONE', #191, 6.349999999999999645 ) ;
#37 = LINE ( 'NONE', #236, #306 ) ;
#38 = VECTOR ( 'NONE', #333, 1000.000000000000000 ) ;
#39 = EDGE_CURVE ( 'NONE', #262, #321, #281, .T. ) ;
#40 = EDGE_LOOP ( 'NONE', ( #1, #334, #48, #151 ) ) ;
#41 = APPROVAL_STATUS ( 'not_yet_approved' ) ;
#42 = COORDINATED_UNIVERSAL_TIME_OFFSET ( 8, 0, .AHEAD. ) ;
#43 = EDGE_LOOP ( 'NONE', ( #225, #103, #300, #67 ) ) ;
#44 = DIRECTION ( 'NONE',  ( -1.000000000000000000, -0.000000000000000000, -0.000000000000000000 ) ) ;
#45 = CARTESIAN_POINT ( 'NONE',  ( 3.000000000000000000, 12.69999999999999929, 0.000000000000000000 ) ) ;
#46 = EDGE_LOOP ( 'NONE', ( #315, #114 ) ) ;
#47 = PLANE ( 'NONE',  #66 ) ;
#48 = ORIENTED_EDGE ( 'NONE', *, *, #229, .T. ) ;
#49 = CIRCLE ( 'NONE', #2, 12.69999999999999929 ) ;
#50 = DIRECTION ( 'NONE',  ( -1.000000000000000000, -0.000000000000000000, -0.000000000000000000 ) ) ;
#51 = ADVANCED_FACE ( 'NONE', ( #9 ), #209, .F. ) ;
#52 = ORIENTED_EDGE ( 'NONE', *, *, #110, .F. ) ;
#53 = CIRCLE ( 'NONE', #312, 6.349999999999999645 ) ;
#54 = DIRECTION ( 'NONE',  ( -1.000000000000000000, -0.000000000000000000, -0.000000000000000000 ) ) ;
#55 = VECTOR ( 'NONE', #86, 1000.000000000000000 ) ;
#56 = CARTESIAN_POINT ( 'NONE',  ( -1.614212418857619014, 0.000000000000000000, 0.000000000000000000 ) ) ;
#57 = AXIS2_PLACEMENT_3D ( 'NONE', #221, #100, #126 ) ;
#58 = CARTESIAN_POINT ( 'NONE',  ( -1.614212418857619014, 0.000000000000000000, 12.69999999999999929 ) ) ;
#59 = DIRECTION ( 'NONE',  ( 0.000000000000000000, 0.000000000000000000, 1.000000000000000000 ) ) ;
#60 = CC_DESIGN_APPROVAL ( #176, ( #274 ) ) ;
#61 = CC_DESIGN_PERSON_AND_ORGANIZATION_ASSIGNMENT ( #216, #68, ( #274 ) ) ;
#62 = CARTESIAN_POINT ( 'NONE',  ( -2.999999999999999556, 7.776507174585692163E-16, -6.349999999999999645 ) ) ;
#63 = PERSON_AND_ORGANIZATION ( #90, #23 ) ;
#64 = CARTESIAN_POINT ( 'NONE',  ( -1.614212418857619014, 0.000000000000000000, 0.000000000000000000 ) ) ;
#65 = PERSON_AND_ORGANIZATION_ROLE ( 'creator' ) ;
#66 = AXIS2_PLACEMENT_3D ( 'NONE', #45, #146, #249 ) ;
#67 = ORIENTED_EDGE ( 'NONE', *, *, #264, .F. ) ;
#68 = PERSON_AND_ORGANIZATION_ROLE ( 'creator' ) ;
#69 = AXIS2_PLACEMENT_3D ( 'NONE', #218, #243, #125 ) ;
#70 = PERSON_AND_ORGANIZATION ( #90, #23 ) ;
#71 = AXIS2_PLACEMENT_3D ( 'NONE', #107, #4, #310 ) ;
#72 = LINE ( 'NONE', #171, #38 ) ;
#73 = AXIS2_PLACEMENT_3D ( 'NONE', #24, #201, #335 ) ;
#74 = CIRCLE ( 'NONE', #69, 6.349999999999999645 ) ;
#75 = ORIENTED_EDGE ( 'NONE', *, *, #133, .T. ) ;
#76 = DIRECTION ( 'NONE',  ( 0.000000000000000000, 0.000000000000000000, 1.000000000000000000 ) ) ;
#77 = PRODUCT ( 'Q-QZWP-R4-12.7-894-M', 'Q-QZWP-R4-12.7-894-M', '', ( #255 ) ) ;
#78 = ADVANCED_FACE ( 'NONE', ( #186 ), #164, .T. ) ;
#79 = FACE_BOUND ( 'NONE', #46, .T. ) ;
#80 = DIRECTION ( 'NONE',  ( 0.000000000000000000, 0.000000000000000000, 1.000000000000000000 ) ) ;
#81 = ORIENTED_EDGE ( 'NONE', *, *, #227, .T. ) ;
#82 = CARTESIAN_POINT ( 'NONE',  ( -3.000000000000000000, 0.000000000000000000, 0.000000000000000000 ) ) ;
#83 = CARTESIAN_POINT ( 'NONE',  ( -1.614212418857619014, 0.000000000000000000, 0.000000000000000000 ) ) ;
#84 = DIRECTION ( 'NONE',  ( 0.000000000000000000, 0.000000000000000000, -1.000000000000000000 ) ) ;
#85 = EDGE_CURVE ( 'NONE', #283, #196, #37, .T. ) ;
#86 = DIRECTION ( 'NONE',  ( -1.000000000000000000, -0.000000000000000000, -0.000000000000000000 ) ) ;
#87 = VECTOR ( 'NONE', #250, 1000.000000000000000 ) ;
#88 = AXIS2_PLACEMENT_3D ( 'NONE', #118, #44, #217 ) ;
#89 = DIRECTION ( 'NONE',  ( 1.000000000000000000, 0.000000000000000000, 0.000000000000000000 ) ) ;
#90 = PERSON ( 'UNSPECIFIED', 'UNSPECIFIED', 'UNSPECIFIED', ('UNSPECIFIED'), ('UNSPECIFIED'), ('UNSPECIFIED') ) ;
#91 = APPROVAL_ROLE ( '' ) ;
#92 = VERTEX_POINT ( 'NONE', #115 ) ;
#93 = SHAPE_DEFINITION_REPRESENTATION ( #254, #121 ) ;
#94 = ADVANCED_FACE ( 'NONE', ( #214, #79 ), #47, .F. ) ;
#95 = CARTESIAN_POINT ( 'NONE',  ( -1.614212418857619014, 0.000000000000000000, 0.000000000000000000 ) ) ;
#96 = EDGE_LOOP ( 'NONE', ( #106, #285 ) ) ;
#97 = DATE_AND_TIME ( #258, #311 ) ;
#98 = DIRECTION ( 'NONE',  ( 0.000000000000000000, 0.000000000000000000, 1.000000000000000000 ) ) ;
#99 = EDGE_CURVE ( 'NONE', #196, #298, #49, .T. ) ;
#100 = DIRECTION ( 'NONE',  ( -1.000000000000000000, -0.000000000000000000, -0.000000000000000000 ) ) ;
#101 = ORIENTED_EDGE ( 'NONE', *, *, #99, .T. ) ;
#102 = CARTESIAN_POINT ( 'NONE',  ( -1.614212418857619014, 7.776507174585692163E-16, -6.349999999999999645 ) ) ;
#103 = ORIENTED_EDGE ( 'NONE', *, *, #85, .T. ) ;
#104 = LOCAL_TIME ( 9, 24, 38.00000000000000000, #42 ) ;
#105 = DIRECTION ( 'NONE',  ( 0.000000000000000000, 0.000000000000000000, 1.000000000000000000 ) ) ;
#106 = ORIENTED_EDGE ( 'NONE', *, *, #247, .F. ) ;
#107 = CARTESIAN_POINT ( 'NONE',  ( 3.000000000000000888, 0.000000000000000000, 0.000000000000000000 ) ) ;
#108 = APPLICATION_PROTOCOL_DEFINITION ( 'international standard', 'config_control_design', 1994, #234 ) ;
#109 = DIRECTION ( 'NONE',  ( 0.000000000000000000, 0.000000000000000000, 1.000000000000000000 ) ) ;
#110 = EDGE_CURVE ( 'NONE', #92, #149, #36, .T. ) ;
#111 =( NAMED_UNIT ( * ) PLANE_ANGLE_UNIT ( ) SI_UNIT ( $, .RADIAN. ) );
#112 = AXIS2_PLACEMENT_3D ( 'NONE', #64, #14, #120 ) ;
#113 = EDGE_CURVE ( 'NONE', #260, #329, #135, .T. ) ;
#114 = ORIENTED_EDGE ( 'NONE', *, *, #110, .T. ) ;
#115 = CARTESIAN_POINT ( 'NONE',  ( 3.000000000000000888, 7.776507174585692163E-16, -6.349999999999999645 ) ) ;
#116 = APPROVAL_PERSON_ORGANIZATION ( #63, #15, #163 ) ;
#117 = DATE_TIME_ROLE ( 'creation_date' ) ;
#118 = CARTESIAN_POINT ( 'NONE',  ( -2.999999999999999556, 0.000000000000000000, 0.000000000000000000 ) ) ;
#119 = PERSON_AND_ORGANIZATION ( #90, #23 ) ;
#120 = DIRECTION ( 'NONE',  ( 0.000000000000000000, 0.000000000000000000, 1.000000000000000000 ) ) ;
#121 = ADVANCED_BREP_SHAPE_REPRESENTATION ( 'Q-QZWP-R4-12.7-894-M', ( #290, #179 ), #324 ) ;
#122 = CARTESIAN_POINT ( 'NONE',  ( 1.500000000000000444, 6.349999999999999645, 0.000000000000000000 ) ) ;
#123 = DIRECTION ( 'NONE',  ( -0.000000000000000000, 0.000000000000000000, 1.000000000000000000 ) ) ;
#124 = ORIENTED_EDGE ( 'NONE', *, *, #301, .F. ) ;
#125 = DIRECTION ( 'NONE',  ( 0.000000000000000000, 0.000000000000000000, 1.000000000000000000 ) ) ;
#126 = DIRECTION ( 'NONE',  ( 0.000000000000000000, 0.000000000000000000, 1.000000000000000000 ) ) ;
#127 = ORIENTED_EDGE ( 'NONE', *, *, #200, .T. ) ;
#128 = SECURITY_CLASSIFICATION ( '', '', #160 ) ;
#129 = CARTESIAN_POINT ( 'NONE',  ( -1.500000000000000444, 0.000000000000000000, 6.349999999999999645 ) ) ;
#130 = DIRECTION ( 'NONE',  ( 0.000000000000000000, 0.000000000000000000, -1.000000000000000000 ) ) ;
#131 = EDGE_CURVE ( 'NONE', #283, #307, #320, .T. ) ;
#132 = PLANE ( 'NONE',  #181 ) ;
#133 = EDGE_CURVE ( 'NONE', #178, #321, #142, .T. ) ;
#134 = CARTESIAN_POINT ( 'NONE',  ( 3.000000000000000000, 0.000000000000000000, 0.000000000000000000 ) ) ;
#135 = CIRCLE ( 'NONE', #210, 6.349999999999999645 ) ;
#136 = CARTESIAN_POINT ( 'NONE',  ( -3.000000000000000000, 6.349999999999999645, 0.000000000000000000 ) ) ;
#137 = CIRCLE ( 'NONE', #71, 6.349999999999999645 ) ;
#138 = DATE_AND_TIME ( #266, #152 ) ;
#139 = EDGE_LOOP ( 'NONE', ( #124, #203, #75, #127 ) ) ;
#140 = DATE_AND_TIME ( #233, #104 ) ;
#141 = COORDINATED_UNIVERSAL_TIME_OFFSET ( 8, 0, .AHEAD. ) ;
#142 = LINE ( 'NONE', #246, #29 ) ;
#143 = CARTESIAN_POINT ( 'NONE',  ( 1.500000000000000888, 0.000000000000000000, 0.000000000000000000 ) ) ;
#144 = PRODUCT_RELATED_PRODUCT_CATEGORY ( 'detail', '', ( #77 ) ) ;
#145 = CARTESIAN_POINT ( 'NONE',  ( 1.500000000000000888, 0.000000000000000000, 0.000000000000000000 ) ) ;
#146 = DIRECTION ( 'NONE',  ( -1.000000000000000000, 0.000000000000000000, -0.000000000000000000 ) ) ;
#147 = AXIS2_PLACEMENT_3D ( 'NONE', #297, #54, #76 ) ;
#148 = AXIS2_PLACEMENT_3D ( 'NONE', #330, #193, #197 ) ;
#149 = VERTEX_POINT ( 'NONE', #291 ) ;
#150 = DIRECTION ( 'NONE',  ( -1.000000000000000000, -0.000000000000000000, -0.000000000000000000 ) ) ;
#151 = ORIENTED_EDGE ( 'NONE', *, *, #113, .T. ) ;
#152 = LOCAL_TIME ( 9, 24, 38.00000000000000000, #317 ) ;
#153 = DIRECTION ( 'NONE',  ( -1.000000000000000000, -0.000000000000000000, -0.000000000000000000 ) ) ;
#154 = DIRECTION ( 'NONE',  ( 0.000000000000000000, 0.000000000000000000, 1.000000000000000000 ) ) ;
#155 = APPROVAL ( #41, 'UNSPECIFIED' ) ;
#156 = CYLINDRICAL_SURFACE ( 'NONE', #284, 6.349999999999999645 ) ;
#157 = DIRECTION ( 'NONE',  ( 0.000000000000000000, 0.000000000000000000, 1.000000000000000000 ) ) ;
#158 = CLOSED_SHELL ( 'NONE', ( #78, #189, #272, #187, #326, #33, #319, #222, #94, #51 ) ) ;
#159 = FACE_OUTER_BOUND ( 'NONE', #22, .T. ) ;
#160 = SECURITY_CLASSIFICATION_LEVEL ( 'unclassified' ) ;
#161 = CALENDAR_DATE ( 2020, 23, 12 ) ;
#162 = ORIENTED_EDGE ( 'NONE', *, *, #39, .F. ) ;
#163 = APPROVAL_ROLE ( '' ) ;
#164 = CYLINDRICAL_SURFACE ( 'NONE', #276, 12.69999999999999929 ) ;
#165 = EDGE_LOOP ( 'NONE', ( #13, #289, #332, #331 ) ) ;
#166 = CC_DESIGN_DATE_AND_TIME_ASSIGNMENT ( #97, #117, ( #173 ) ) ;
#167 = APPROVAL_STATUS ( 'not_yet_approved' ) ;
#168 = CC_DESIGN_SECURITY_CLASSIFICATION ( #128, ( #274 ) ) ;
#169 = AXIS2_PLACEMENT_3D ( 'NONE', #314, #89, #318 ) ;
#170 = ORIENTED_EDGE ( 'NONE', *, *, #131, .F. ) ;
#171 = CARTESIAN_POINT ( 'NONE',  ( -1.614212418857619014, 0.000000000000000000, 6.349999999999999645 ) ) ;
#172 = DIRECTION ( 'NONE',  ( -1.000000000000000000, 0.000000000000000000, -0.000000000000000000 ) ) ;
#173 = PRODUCT_DEFINITION ( 'UNKNOWN', '', #274, #230 ) ;
#174 = DIRECTION ( 'NONE',  ( -1.000000000000000000, -0.000000000000000000, -0.000000000000000000 ) ) ;
#175 = EDGE_LOOP ( 'NONE', ( #192, #170 ) ) ;
#176 = APPROVAL ( #167, 'UNSPECIFIED' ) ;
#177 = VECTOR ( 'NONE', #195, 1000.000000000000000 ) ;
#178 = VERTEX_POINT ( 'NONE', #129 ) ;
#179 = AXIS2_PLACEMENT_3D ( 'NONE', #279, #59, #305 ) ;
#180 =( NAMED_UNIT ( * ) SI_UNIT ( $, .STERADIAN. ) SOLID_ANGLE_UNIT ( ) );
#181 = AXIS2_PLACEMENT_3D ( 'NONE', #136, #232, #84 ) ;
#182 = FACE_OUTER_BOUND ( 'NONE', #304, .T. ) ;
#183 = APPLICATION_CONTEXT ( 'configuration controlled 3d designs of mechanical parts and assemblies' ) ;
#184 = CARTESIAN_POINT ( 'NONE',  ( 3.000000000000000000, 1.555301434917138433E-15, -12.69999999999999929 ) ) ;
#185 = CIRCLE ( 'NONE', #6, 6.349999999999999645 ) ;
#186 = FACE_OUTER_BOUND ( 'NONE', #43, .T. ) ;
#187 = ADVANCED_FACE ( 'NONE', ( #248 ), #241, .F. ) ;
#188 = AXIS2_PLACEMENT_3D ( 'NONE', #83, #153, #154 ) ;
#189 = ADVANCED_FACE ( 'NONE', ( #17 ), #19, .F. ) ;
#190 = PERSON_AND_ORGANIZATION ( #90, #23 ) ;
#191 = AXIS2_PLACEMENT_3D ( 'NONE', #224, #273, #271 ) ;
#192 = ORIENTED_EDGE ( 'NONE', *, *, #309, .F. ) ;
#193 = DIRECTION ( 'NONE',  ( -1.000000000000000000, -0.000000000000000000, -0.000000000000000000 ) ) ;
#194 = ORIENTED_EDGE ( 'NONE', *, *, #227, .F. ) ;
#195 = DIRECTION ( 'NONE',  ( -1.000000000000000000, -0.000000000000000000, -0.000000000000000000 ) ) ;
#196 = VERTEX_POINT ( 'NONE', #219 ) ;
#197 = DIRECTION ( 'NONE',  ( 0.000000000000000000, 0.000000000000000000, 1.000000000000000000 ) ) ;
#198 = APPROVAL_PERSON_ORGANIZATION ( #190, #155, #91 ) ;
#199 = EDGE_LOOP ( 'NONE', ( #263, #296, #5, #327 ) ) ;
#200 = EDGE_CURVE ( 'NONE', #321, #262, #74, .T. ) ;
#201 = DIRECTION ( 'NONE',  ( -1.000000000000000000, -0.000000000000000000, -0.000000000000000000 ) ) ;
#202 = AXIS2_PLACEMENT_3D ( 'NONE', #122, #172, #123 ) ;
#203 = ORIENTED_EDGE ( 'NONE', *, *, #211, .T. ) ;
#204 = CARTESIAN_POINT ( 'NONE',  ( -1.614212418857619014, 7.776507174585692163E-16, -6.349999999999999645 ) ) ;
#205 = CC_DESIGN_PERSON_AND_ORGANIZATION_ASSIGNMENT ( #70, #31, ( #128 ) ) ;
#206 = CYLINDRICAL_SURFACE ( 'NONE', #188, 6.349999999999999645 ) ;
#207 = CC_DESIGN_PERSON_AND_ORGANIZATION_ASSIGNMENT ( #119, #65, ( #173 ) ) ;
#208 = PERSON_AND_ORGANIZATION_ROLE ( 'design_owner' ) ;
#209 = PLANE ( 'NONE',  #169 ) ;
#210 = AXIS2_PLACEMENT_3D ( 'NONE', #145, #50, #105 ) ;
#211 = EDGE_CURVE ( 'NONE', #11, #178, #185, .T. ) ;
#212 = PERSON_AND_ORGANIZATION ( #90, #23 ) ;
#213 = CIRCLE ( 'NONE', #244, 12.69999999999999929 ) ;
#214 = FACE_OUTER_BOUND ( 'NONE', #175, .T. ) ;
#215 = APPROVAL_DATE_TIME ( #140, #176 ) ;
#216 = PERSON_AND_ORGANIZATION ( #90, #23 ) ;
#217 = DIRECTION ( 'NONE',  ( 0.000000000000000000, 0.000000000000000000, 1.000000000000000000 ) ) ;
#218 = CARTESIAN_POINT ( 'NONE',  ( -2.999999999999999556, 0.000000000000000000, 0.000000000000000000 ) ) ;
#219 = CARTESIAN_POINT ( 'NONE',  ( -3.000000000000000000, 1.555301434917138433E-15, -12.69999999999999929 ) ) ;
#220 = ORIENTED_EDGE ( 'NONE', *, *, #229, .F. ) ;
#221 = CARTESIAN_POINT ( 'NONE',  ( -1.614212418857619014, 0.000000000000000000, 0.000000000000000000 ) ) ;
#222 = ADVANCED_FACE ( 'NONE', ( #288 ), #328, .T. ) ;
#223 = DIRECTION ( 'NONE',  ( 1.000000000000000000, 0.000000000000000000, 0.000000000000000000 ) ) ;
#224 = CARTESIAN_POINT ( 'NONE',  ( 3.000000000000000888, 0.000000000000000000, 0.000000000000000000 ) ) ;
#225 = ORIENTED_EDGE ( 'NONE', *, *, #309, .T. ) ;
#226 =( LENGTH_UNIT ( ) NAMED_UNIT ( * ) SI_UNIT ( .MILLI., .METRE. ) );
#227 = EDGE_CURVE ( 'NONE', #329, #260, #53, .T. ) ;
#228 = DIRECTION ( 'NONE',  ( -1.000000000000000000, -0.000000000000000000, -0.000000000000000000 ) ) ;
#229 = EDGE_CURVE ( 'NONE', #149, #260, #72, .T. ) ;
#230 = DESIGN_CONTEXT ( 'detailed design', #183, 'design' ) ;
#231 = EDGE_CURVE ( 'NONE', #92, #329, #269, .T. ) ;
#232 = DIRECTION ( 'NONE',  ( 1.000000000000000000, 0.000000000000000000, 0.000000000000000000 ) ) ;
#233 = CALENDAR_DATE ( 2020, 23, 12 ) ;
#234 = APPLICATION_CONTEXT ( 'configuration controlled 3d designs of mechanical parts and assemblies' ) ;
#235 = APPLICATION_PROTOCOL_DEFINITION ( 'international standard', 'config_control_design', 1994, #183 ) ;
#236 = CARTESIAN_POINT ( 'NONE',  ( -1.614212418857619014, 1.555301434917138433E-15, -12.69999999999999929 ) ) ;
#237 = CIRCLE ( 'NONE', #295, 6.349999999999999645 ) ;
#238 = APPROVAL_DATE_TIME ( #261, #15 ) ;
#239 = CYLINDRICAL_SURFACE ( 'NONE', #112, 6.349999999999999645 ) ;
#240 = PERSON_AND_ORGANIZATION_ROLE ( 'design_supplier' ) ;
#241 = PLANE ( 'NONE',  #202 ) ;
#242 = EDGE_CURVE ( 'NONE', #298, #196, #302, .T. ) ;
#243 = DIRECTION ( 'NONE',  ( -1.000000000000000000, -0.000000000000000000, -0.000000000000000000 ) ) ;
#244 = AXIS2_PLACEMENT_3D ( 'NONE', #134, #228, #157 ) ;
#245 = ORIENTED_EDGE ( 'NONE', *, *, #113, .F. ) ;
#246 = CARTESIAN_POINT ( 'NONE',  ( -1.614212418857619014, 0.000000000000000000, 6.349999999999999645 ) ) ;
#247 = EDGE_CURVE ( 'NONE', #178, #11, #237, .T. ) ;
#248 = FACE_OUTER_BOUND ( 'NONE', #275, .T. ) ;
#249 = DIRECTION ( 'NONE',  ( -0.000000000000000000, 0.000000000000000000, 1.000000000000000000 ) ) ;
#250 = DIRECTION ( 'NONE',  ( -1.000000000000000000, -0.000000000000000000, -0.000000000000000000 ) ) ;
#251 = DIRECTION ( 'NONE',  ( -1.000000000000000000, -0.000000000000000000, -0.000000000000000000 ) ) ;
#252 = CARTESIAN_POINT ( 'NONE',  ( -2.999999999999999556, 0.000000000000000000, 6.349999999999999645 ) ) ;
#253 = ORIENTED_EDGE ( 'NONE', *, *, #231, .T. ) ;
#254 = PRODUCT_DEFINITION_SHAPE ( 'NONE', 'NONE',  #173 ) ;
#255 = MECHANICAL_CONTEXT ( 'NONE', #234, 'mechanical' ) ;
#256 = CARTESIAN_POINT ( 'NONE',  ( -3.000000000000000000, 0.000000000000000000, 12.69999999999999929 ) ) ;
#257 = COORDINATED_UNIVERSAL_TIME_OFFSET ( 8, 0, .AHEAD. ) ;
#258 = CALENDAR_DATE ( 2020, 23, 12 ) ;
#259 = CC_DESIGN_PERSON_AND_ORGANIZATION_ASSIGNMENT ( #212, #240, ( #274 ) ) ;
#260 = VERTEX_POINT ( 'NONE', #277 ) ;
#261 = DATE_AND_TIME ( #161, #270 ) ;
#262 = VERTEX_POINT ( 'NONE', #62 ) ;
#263 = ORIENTED_EDGE ( 'NONE', *, *, #85, .F. ) ;
#264 = EDGE_CURVE ( 'NONE', #307, #298, #308, .T. ) ;
#265 = CC_DESIGN_APPROVAL ( #15, ( #173 ) ) ;
#266 = CALENDAR_DATE ( 2020, 23, 12 ) ;
#267 = FACE_OUTER_BOUND ( 'NONE', #139, .T. ) ;
#268 = CC_DESIGN_PERSON_AND_ORGANIZATION_ASSIGNMENT ( #313, #208, ( #77 ) ) ;
#269 = LINE ( 'NONE', #102, #177 ) ;
#270 = LOCAL_TIME ( 9, 24, 38.00000000000000000, #257 ) ;
#271 = DIRECTION ( 'NONE',  ( 0.000000000000000000, 0.000000000000000000, 1.000000000000000000 ) ) ;
#272 = ADVANCED_FACE ( 'NONE', ( #159 ), #156, .F. ) ;
#273 = DIRECTION ( 'NONE',  ( -1.000000000000000000, -0.000000000000000000, -0.000000000000000000 ) ) ;
#274 = PRODUCT_DEFINITION_FORMATION_WITH_SPECIFIED_SOURCE ( 'ANY', '', #77, .NOT_KNOWN. ) ;
#275 = EDGE_LOOP ( 'NONE', ( #245, #194 ) ) ;
#276 = AXIS2_PLACEMENT_3D ( 'NONE', #95, #323, #98 ) ;
#277 = CARTESIAN_POINT ( 'NONE',  ( 1.500000000000000888, 0.000000000000000000, 6.349999999999999645 ) ) ;
#278 = EDGE_CURVE ( 'NONE', #149, #92, #137, .T. ) ;
#279 = CARTESIAN_POINT ( 'NONE',  ( 0.000000000000000000, 0.000000000000000000, 0.000000000000000000 ) ) ;
#280 = DIRECTION ( 'NONE',  ( 1.000000000000000000, 0.000000000000000000, 0.000000000000000000 ) ) ;
#281 = CIRCLE ( 'NONE', #88, 6.349999999999999645 ) ;
#282 = PERSON_AND_ORGANIZATION ( #90, #23 ) ;
#283 = VERTEX_POINT ( 'NONE', #184 ) ;
#284 = AXIS2_PLACEMENT_3D ( 'NONE', #56, #251, #109 ) ;
#285 = ORIENTED_EDGE ( 'NONE', *, *, #211, .F. ) ;
#286 = CARTESIAN_POINT ( 'NONE',  ( -1.500000000000000444, 7.776507174585692163E-16, -6.349999999999999645 ) ) ;
#287 = APPROVAL_PERSON_ORGANIZATION ( #282, #176, #32 ) ;
#288 = FACE_OUTER_BOUND ( 'NONE', #199, .T. ) ;
#289 = ORIENTED_EDGE ( 'NONE', *, *, #301, .T. ) ;
#290 = MANIFOLD_SOLID_BREP ( 'Ðý×', #158 ) ;
#291 = CARTESIAN_POINT ( 'NONE',  ( 3.000000000000000888, 0.000000000000000000, 6.349999999999999645 ) ) ;
#292 = EDGE_LOOP ( 'NONE', ( #21, #162 ) ) ;
#293 = CC_DESIGN_APPROVAL ( #155, ( #128 ) ) ;
#294 = CARTESIAN_POINT ( 'NONE',  ( -1.500000000000000444, 0.000000000000000000, 0.000000000000000000 ) ) ;
#295 = AXIS2_PLACEMENT_3D ( 'NONE', #294, #280, #130 ) ;
#296 = ORIENTED_EDGE ( 'NONE', *, *, #131, .T. ) ;
#297 = CARTESIAN_POINT ( 'NONE',  ( -3.000000000000000000, 0.000000000000000000, 0.000000000000000000 ) ) ;
#298 = VERTEX_POINT ( 'NONE', #256 ) ;
#299 = DIRECTION ( 'NONE',  ( 0.000000000000000000, 0.000000000000000000, 1.000000000000000000 ) ) ;
#300 = ORIENTED_EDGE ( 'NONE', *, *, #242, .F. ) ;
#301 = EDGE_CURVE ( 'NONE', #11, #262, #26, .T. ) ;
#302 = CIRCLE ( 'NONE', #147, 12.69999999999999929 ) ;
#303 = CARTESIAN_POINT ( 'NONE',  ( 3.000000000000000000, 0.000000000000000000, 12.69999999999999929 ) ) ;
#304 = EDGE_LOOP ( 'NONE', ( #34, #101 ) ) ;
#305 = DIRECTION ( 'NONE',  ( 1.000000000000000000, 0.000000000000000000, 0.000000000000000000 ) ) ;
#306 = VECTOR ( 'NONE', #12, 1000.000000000000000 ) ;
#307 = VERTEX_POINT ( 'NONE', #303 ) ;
#308 = LINE ( 'NONE', #58, #55 ) ;
#309 = EDGE_CURVE ( 'NONE', #307, #283, #213, .T. ) ;
#310 = DIRECTION ( 'NONE',  ( 0.000000000000000000, 0.000000000000000000, 1.000000000000000000 ) ) ;
#311 = LOCAL_TIME ( 9, 24, 38.00000000000000000, #10 ) ;
#312 = AXIS2_PLACEMENT_3D ( 'NONE', #143, #18, #80 ) ;
#313 = PERSON_AND_ORGANIZATION ( #90, #23 ) ;
#314 = CARTESIAN_POINT ( 'NONE',  ( -1.500000000000000444, 6.349999999999999645, 0.000000000000000000 ) ) ;
#315 = ORIENTED_EDGE ( 'NONE', *, *, #278, .T. ) ;
#316 = DATE_TIME_ROLE ( 'classification_date' ) ;
#317 = COORDINATED_UNIVERSAL_TIME_OFFSET ( 8, 0, .AHEAD. ) ;
#318 = DIRECTION ( 'NONE',  ( 0.000000000000000000, 0.000000000000000000, -1.000000000000000000 ) ) ;
#319 = ADVANCED_FACE ( 'NONE', ( #30, #182 ), #132, .F. ) ;
#320 = CIRCLE ( 'NONE', #73, 12.69999999999999929 ) ;
#321 = VERTEX_POINT ( 'NONE', #252 ) ;
#322 = APPROVAL_STATUS ( 'not_yet_approved' ) ;
#323 = DIRECTION ( 'NONE',  ( -1.000000000000000000, -0.000000000000000000, -0.000000000000000000 ) ) ;
#324 =( GEOMETRIC_REPRESENTATION_CONTEXT ( 3 ) GLOBAL_UNCERTAINTY_ASSIGNED_CONTEXT ( ( #27 ) ) GLOBAL_UNIT_ASSIGNED_CONTEXT ( ( #226, #111, #180 ) ) REPRESENTATION_CONTEXT ( 'NONE', 'WORKASPACE' ) );
#325 = CARTESIAN_POINT ( 'NONE',  ( -1.500000000000000444, 0.000000000000000000, 0.000000000000000000 ) ) ;
#326 = ADVANCED_FACE ( 'NONE', ( #25 ), #206, .F. ) ;
#327 = ORIENTED_EDGE ( 'NONE', *, *, #99, .F. ) ;
#328 = CYLINDRICAL_SURFACE ( 'NONE', #57, 12.69999999999999929 ) ;
#329 = VERTEX_POINT ( 'NONE', #28 ) ;
#330 = CARTESIAN_POINT ( 'NONE',  ( -1.614212418857619014, 0.000000000000000000, 0.000000000000000000 ) ) ;
#331 = ORIENTED_EDGE ( 'NONE', *, *, #133, .F. ) ;
#332 = ORIENTED_EDGE ( 'NONE', *, *, #39, .T. ) ;
#333 = DIRECTION ( 'NONE',  ( -1.000000000000000000, -0.000000000000000000, -0.000000000000000000 ) ) ;
#334 = ORIENTED_EDGE ( 'NONE', *, *, #278, .F. ) ;
#335 = DIRECTION ( 'NONE',  ( 0.000000000000000000, 0.000000000000000000, 1.000000000000000000 ) ) ;
ENDSEC;
END-ISO-10303-21;
